• Какого возраста Ваше Домашнее животное - Действительно?

    Только, какого возраста Ваша собака действительно? Более чем вероятный Вы знаете возраст собак в годах, или по крайней мере имеете приближение его возраста, но у Вас действительно есть какая-нибудь идея, какого возраста это может быть - хронологически говорящий?

    Я уверен, что Вы услышали о старомquot; семилетний theory". Вы знаете, система, где каждый год собаки или кошек жизнь - эквивалент 7 из наших. Пример этого размышления был бы то, что 1-летняя собака будет возрастом и связанный с развитием равный из 7-летнего человека. Теперь только, сколько 7-летних детей Вы знаете, что сексуально зрелы - и в состоянии воспроизвести? У кошки или собаки, намного более вероятно, будет мусор, когда это будет один год или младший, или в другой противоположности, десять лет или старший, чем человек, который является моложе семь или по возрасту семьдесят! Эта система была проста - но слишком проста. Много людей сегодня могут все еще использовать эти вычисления, приезжая в некоторую идею их биологического возраста домашних животных. Однако, из-за примеров как тот выше Вас может видеть, почему этот самый простой систем не принят сегодня.

    В начале 1950-ых французский ветеринар, господин LeBeau, сформулировал другую систему, чтобы обратиться к этой проблеме. В системе LeBeau's собака/кошка 1 года в возрасте стала эквивалентом 15-летнего человека - из-за начала половой зрелости в каждой разновидности. Второй год жизни собаки/кошек стал эквивалентом 24-летнего человека - кто-то / кое-что, что достигло полной зрелости. После два, каждый год жизни животных равнялся бы 4 годам человеческой жизни.

    Время викторины популярности! Только, какого возраста был бы 6-летняя кошкаquot; really" используйте эту более новую систему? Согласно теории LeBeau, собака/кошка была бы эквивалентом 40-летнего человека. Помните, 24 + (4*4) = 40. Как о 10-летней собаке? Если Вы придумали 56 тогда, Вы были правильны! Интересно отметить, что собаки и кошки продвигают этот более новый масштаб возраста по той же самой норме, пока они не достигают возраста 14. Тогда нормы начинают отличаться между собаками и кошками, сравненными в человеческой терминологии возраста. Эта диаграмма работала бы весьма хорошо на собаку или кошку, имеющую среднюю продолжительность жизни (ПИВО) 14 лет. Поскольку все мы знаем, часто животные, также, как и люди, могут превысить ПИВО, которое призвало бы к дальнейшей обработке этой формулы возраста. Для этого мы должны знать кое о чем названном максимальная продолжительность жизни (МЛ). В основном, средняя продолжительность жизни - количество лет, человек, животное, и т. д. может разумно ожидать жить. МЛ с другой стороны, генетически базирующийся максимальный возраст, вне которого не может жить никакой член той разновидности.

    Следующие диаграммы покажут Вам только, как теории LeBeaux работают, определяя возраст Вашего домашнего животного. Мы надеемся, что этот материал помогает к Вам в будущем.

    ВОЗРАСТ

    Человек Кошки/собаки

    1---------------------------15

    2---------------------------24

    3---------------------------28

    4---------------------------32

    5---------------------------36

    6---------------------------40

    7---------------------------44

    8---------------------------48

    9---------------------------52

    10-------------------------56

    11-------------------------60

    12-------------------------64

    13-------------------------68

    14-------------------------72

    Собаки/люди Кошек/людей ВОЗРАСТА

    15------------74--------------------74.5

    16------------76--------------------77

    17------------78--------------------79.5

    18------------80--------------------82

    19------------82--------------------84.5

    20------------84--------------------87

    21------------86--------------------89.5

    22------------88--------------------92

    23------------90--------------------94.5

    24------------92--------------------97

    25------------94--------------------99.5

    26------------96--------------------102

    27------------98--------------------104.5

    28-----------100-------------------107

    29-----------102-------------------109.5

    30-----------104

    31-----------106

    32-----------108

    33-----------110

    34-----------112

    Copyright 2005. Все права защищены.